ISO-10303-21;
HEADER;
FILE_DESCRIPTION (( 'STEP AP203' ),
    '1' );
FILE_NAME ('N-SF1-BPBSC-12.7-1200-1600.STEP',
    '2021-01-05T02:14:23',
    ( '' ),
    ( '' ),
    'SwSTEP 2.0',
    'SolidWorks 2020',
    '' );
FILE_SCHEMA (( 'CONFIG_CONTROL_DESIGN' ));
ENDSEC;

DATA;
#1 = ORIENTED_EDGE ( 'NONE', *, *, #318, .T. ) ;
#2 = FACE_OUTER_BOUND ( 'NONE', #115, .T. ) ;
#3 = PERSON_AND_ORGANIZATION ( #197, #257 ) ;
#4 = FACE_OUTER_BOUND ( 'NONE', #74, .T. ) ;
#5 = EDGE_LOOP ( 'NONE', ( #207, #91, #250, #16 ) ) ;
#6 = DATE_AND_TIME ( #228, #286 ) ;
#7 = VECTOR ( 'NONE', #209, 1000.000000000000000 ) ;
#8 = EDGE_CURVE ( 'NONE', #314, #13, #146, .T. ) ;
#9 = DIRECTION ( 'NONE',  ( -1.000000000000000000, -6.829619984160658046E-17, 0.000000000000000000 ) ) ;
#10 = EDGE_LOOP ( 'NONE', ( #113, #66, #141, #160 ) ) ;
#11 = CARTESIAN_POINT ( 'NONE',  ( -6.349999999999998757, -6.349999999999997868, -6.349999999999999645 ) ) ;
#12 = ORIENTED_EDGE ( 'NONE', *, *, #127, .T. ) ;
#13 = VERTEX_POINT ( 'NONE', #132 ) ;
#14 = LOCAL_TIME ( 10, 14, 23.00000000000000000, #268 ) ;
#15 = CARTESIAN_POINT ( 'NONE',  ( -6.350000000000002309, 6.350000000000001421, 6.349999999999999645 ) ) ;
#16 = ORIENTED_EDGE ( 'NONE', *, *, #288, .T. ) ;
#17 = PERSON_AND_ORGANIZATION_ROLE ( 'design_owner' ) ;
#18 = VECTOR ( 'NONE', #198, 1000.000000000000000 ) ;
#19 = ORIENTED_EDGE ( 'NONE', *, *, #97, .T. ) ;
#20 = EDGE_LOOP ( 'NONE', ( #297, #123, #294, #269 ) ) ;
#21 = VECTOR ( 'NONE', #221, 1000.000000000000000 ) ;
#22 = EDGE_CURVE ( 'NONE', #13, #62, #220, .T. ) ;
#23 = FACE_OUTER_BOUND ( 'NONE', #295, .T. ) ;
#24 =( LENGTH_UNIT ( ) NAMED_UNIT ( * ) SI_UNIT ( .MILLI., .METRE. ) );
#25 = PRODUCT_RELATED_PRODUCT_CATEGORY ( 'detail', '', ( #208 ) ) ;
#26 = AXIS2_PLACEMENT_3D ( 'NONE', #61, #90, #32 ) ;
#27 = DIRECTION ( 'NONE',  ( 0.000000000000000000, 1.000000000000000000, 0.000000000000000000 ) ) ;
#28 = DATE_AND_TIME ( #110, #261 ) ;
#29 = DATE_TIME_ROLE ( 'classification_date' ) ;
#30 = CARTESIAN_POINT ( 'NONE',  ( -6.349999999999999645, -6.350000000000000533, 6.349999999999999645 ) ) ;
#31 = ADVANCED_FACE ( 'NONE', ( #102 ), #175, .F. ) ;
#32 = DIRECTION ( 'NONE',  ( 1.000000000000000000, 0.000000000000000000, 0.000000000000000000 ) ) ;
#33 = CC_DESIGN_PERSON_AND_ORGANIZATION_ASSIGNMENT ( #298, #17, ( #208 ) ) ;
#34 = APPROVAL_ROLE ( '' ) ;
#35 = DIRECTION ( 'NONE',  ( 1.000000000000000000, -2.220446049250312588E-16, 0.000000000000000000 ) ) ;
#36 = CARTESIAN_POINT ( 'NONE',  ( -6.349999999999998757, -6.349999999999997868, 6.349999999999999645 ) ) ;
#37 = VECTOR ( 'NONE', #147, 1000.000000000000000 ) ;
#38 = VECTOR ( 'NONE', #98, 1000.000000000000000 ) ;
#39 = PLANE ( 'NONE',  #67 ) ;
#40 = CC_DESIGN_DATE_AND_TIME_ASSIGNMENT ( #6, #29, ( #186 ) ) ;
#41 = CARTESIAN_POINT ( 'NONE',  ( -6.349999999999999645, -6.350000000000000533, 6.349999999999999645 ) ) ;
#42 = APPLICATION_PROTOCOL_DEFINITION ( 'international standard', 'config_control_design', 1994, #51 ) ;
#43 = ORIENTED_EDGE ( 'NONE', *, *, #266, .T. ) ;
#44 = EDGE_CURVE ( 'NONE', #222, #93, #200, .T. ) ;
#45 = ORIENTED_EDGE ( 'NONE', *, *, #163, .F. ) ;
#46 = DATE_AND_TIME ( #122, #14 ) ;
#47 = ORIENTED_EDGE ( 'NONE', *, *, #44, .T. ) ;
#48 = APPROVAL_DATE_TIME ( #101, #203 ) ;
#49 = MANIFOLD_SOLID_BREP ( 'Í¹Ì¨-À', #206 ) ;
#50 = DIRECTION ( 'NONE',  ( 1.000000000000000000, 0.000000000000000000, 0.000000000000000000 ) ) ;
#51 = APPLICATION_CONTEXT ( 'configuration controlled 3d designs of mechanical parts and assemblies' ) ;
#52 = LINE ( 'NONE', #201, #60 ) ;
#53 = CARTESIAN_POINT ( 'NONE',  ( 6.349999999999998757, 6.349999999999998757, -6.349999999999999645 ) ) ;
#54 = CARTESIAN_POINT ( 'NONE',  ( 6.349999999999996980, 6.349999999999996980, -6.349999999999999645 ) ) ;
#55 = PERSON_AND_ORGANIZATION_ROLE ( 'design_supplier' ) ;
#56 = CC_DESIGN_SECURITY_CLASSIFICATION ( #186, ( #301 ) ) ;
#57 = FACE_OUTER_BOUND ( 'NONE', #20, .T. ) ;
#58 = APPROVAL_STATUS ( 'not_yet_approved' ) ;
#59 = CARTESIAN_POINT ( 'NONE',  ( 6.349999999999998757, 6.349999999999998757, 6.349999999999999645 ) ) ;
#60 = VECTOR ( 'NONE', #50, 1000.000000000000000 ) ;
#61 = CARTESIAN_POINT ( 'NONE',  ( 0.000000000000000000, 0.000000000000000000, 6.349999999999999645 ) ) ;
#62 = VERTEX_POINT ( 'NONE', #196 ) ;
#63 =( GEOMETRIC_REPRESENTATION_CONTEXT ( 3 ) GLOBAL_UNCERTAINTY_ASSIGNED_CONTEXT ( ( #75 ) ) GLOBAL_UNIT_ASSIGNED_CONTEXT ( ( #24, #167, #300 ) ) REPRESENTATION_CONTEXT ( 'NONE', 'WORKASPACE' ) );
#64 = VERTEX_POINT ( 'NONE', #219 ) ;
#65 = PLANE ( 'NONE',  #232 ) ;
#66 = ORIENTED_EDGE ( 'NONE', *, *, #318, .F. ) ;
#67 = AXIS2_PLACEMENT_3D ( 'NONE', #188, #233, #140 ) ;
#68 = CARTESIAN_POINT ( 'NONE',  ( -6.349999999999999645, -6.350000000000000533, -6.349999999999999645 ) ) ;
#69 = VECTOR ( 'NONE', #172, 1000.000000000000000 ) ;
#70 = ORIENTED_EDGE ( 'NONE', *, *, #173, .T. ) ;
#71 = APPROVAL ( #58, 'UNSPECIFIED' ) ;
#72 = PERSON_AND_ORGANIZATION ( #197, #257 ) ;
#73 = VECTOR ( 'NONE', #310, 1000.000000000000000 ) ;
#74 = EDGE_LOOP ( 'NONE', ( #43, #12, #47 ) ) ;
#75 = UNCERTAINTY_MEASURE_WITH_UNIT (LENGTH_MEASURE( 1.000000000000000082E-05 ), #24, 'distance_accuracy_value', 'NONE');
#76 = APPROVAL_STATUS ( 'not_yet_approved' ) ;
#77 = VERTEX_POINT ( 'NONE', #79 ) ;
#78 = COORDINATED_UNIVERSAL_TIME_OFFSET ( 8, 0, .AHEAD. ) ;
#79 = CARTESIAN_POINT ( 'NONE',  ( 6.349999999999999645, -6.350000000000000533, -6.349999999999999645 ) ) ;
#80 = EDGE_CURVE ( 'NONE', #314, #64, #275, .T. ) ;
#81 = PERSON_AND_ORGANIZATION ( #197, #257 ) ;
#82 = LINE ( 'NONE', #53, #151 ) ;
#83 = LINE ( 'NONE', #133, #243 ) ;
#84 = CARTESIAN_POINT ( 'NONE',  ( 6.349999999999996980, 6.349999999999996980, 6.349999999999999645 ) ) ;
#85 = CC_DESIGN_APPROVAL ( #203, ( #103 ) ) ;
#86 = FACE_OUTER_BOUND ( 'NONE', #100, .T. ) ;
#87 = DIRECTION ( 'NONE',  ( 6.829619984160658046E-17, -1.000000000000000000, 0.000000000000000000 ) ) ;
#88 = ORIENTED_EDGE ( 'NONE', *, *, #94, .F. ) ;
#89 = ADVANCED_FACE ( 'NONE', ( #23 ), #321, .F. ) ;
#90 = DIRECTION ( 'NONE',  ( -0.000000000000000000, 0.000000000000000000, 1.000000000000000000 ) ) ;
#91 = ORIENTED_EDGE ( 'NONE', *, *, #80, .F. ) ;
#92 = CARTESIAN_POINT ( 'NONE',  ( 0.000000000000000000, 0.000000000000000000, -6.349999999999999645 ) ) ;
#93 = VERTEX_POINT ( 'NONE', #272 ) ;
#94 = EDGE_CURVE ( 'NONE', #168, #239, #83, .T. ) ;
#95 = CARTESIAN_POINT ( 'NONE',  ( 6.349999999999999645, -6.350000000000000533, 6.349999999999999645 ) ) ;
#96 = EDGE_LOOP ( 'NONE', ( #88, #165, #265, #267 ) ) ;
#97 = EDGE_CURVE ( 'NONE', #311, #77, #52, .T. ) ;
#98 = DIRECTION ( 'NONE',  ( -0.000000000000000000, -0.000000000000000000, -1.000000000000000000 ) ) ;
#99 = VECTOR ( 'NONE', #183, 1000.000000000000000 ) ;
#100 = EDGE_LOOP ( 'NONE', ( #145, #287, #190 ) ) ;
#101 = DATE_AND_TIME ( #274, #292 ) ;
#102 = FACE_OUTER_BOUND ( 'NONE', #5, .T. ) ;
#103 = PRODUCT_DEFINITION ( 'UNKNOWN', '', #301, #249 ) ;
#104 = AXIS2_PLACEMENT_3D ( 'NONE', #30, #27, #178 ) ;
#105 = CARTESIAN_POINT ( 'NONE',  ( 6.349999999999996980, 6.349999999999996980, 6.349999999999999645 ) ) ;
#106 = CARTESIAN_POINT ( 'NONE',  ( -6.349999999999999645, -6.350000000000000533, 6.349999999999999645 ) ) ;
#107 = PLANE ( 'NONE',  #104 ) ;
#108 = ADVANCED_FACE ( 'NONE', ( #2 ), #148, .T. ) ;
#109 = CARTESIAN_POINT ( 'NONE',  ( 6.349999999999998757, 6.349999999999998757, -6.349999999999999645 ) ) ;
#110 = CALENDAR_DATE ( 2021, 5, 1 ) ;
#111 = PLANE ( 'NONE',  #26 ) ;
#112 = AXIS2_PLACEMENT_3D ( 'NONE', #293, #9, #87 ) ;
#113 = ORIENTED_EDGE ( 'NONE', *, *, #187, .T. ) ;
#114 = CARTESIAN_POINT ( 'NONE',  ( 6.349999999999998757, 6.349999999999998757, -6.349999999999999645 ) ) ;
#115 = EDGE_LOOP ( 'NONE', ( #217, #194, #299 ) ) ;
#116 = DIRECTION ( 'NONE',  ( 0.000000000000000000, 0.000000000000000000, -1.000000000000000000 ) ) ;
#117 = APPROVAL_PERSON_ORGANIZATION ( #119, #203, #216 ) ;
#118 = ORIENTED_EDGE ( 'NONE', *, *, #127, .F. ) ;
#119 = PERSON_AND_ORGANIZATION ( #197, #257 ) ;
#120 = ORIENTED_EDGE ( 'NONE', *, *, #227, .F. ) ;
#121 = AXIS2_PLACEMENT_3D ( 'NONE', #105, #125, #247 ) ;
#122 = CALENDAR_DATE ( 2021, 5, 1 ) ;
#123 = ORIENTED_EDGE ( 'NONE', *, *, #291, .F. ) ;
#124 = ADVANCED_FACE ( 'NONE', ( #248 ), #107, .F. ) ;
#125 = DIRECTION ( 'NONE',  ( -2.903408047666378392E-16, -1.000000000000000000, 0.000000000000000000 ) ) ;
#126 = LOCAL_TIME ( 10, 14, 23.00000000000000000, #254 ) ;
#127 = EDGE_CURVE ( 'NONE', #193, #222, #131, .T. ) ;
#128 = CARTESIAN_POINT ( 'NONE',  ( 6.349999999999998757, 6.349999999999998757, 6.349999999999999645 ) ) ;
#129 = DIRECTION ( 'NONE',  ( 0.000000000000000000, 0.000000000000000000, 1.000000000000000000 ) ) ;
#130 = CLOSED_SHELL ( 'NONE', ( #225, #289, #31, #108, #285 ) ) ;
#131 = LINE ( 'NONE', #106, #284 ) ;
#132 = CARTESIAN_POINT ( 'NONE',  ( 6.349999999999996980, 6.349999999999996980, 6.349999999999999645 ) ) ;
#133 = CARTESIAN_POINT ( 'NONE',  ( 6.349999999999996980, 6.349999999999996980, -6.349999999999999645 ) ) ;
#134 = APPROVAL_STATUS ( 'not_yet_approved' ) ;
#135 = CARTESIAN_POINT ( 'NONE',  ( 6.349999999999999645, -6.350000000000000533, 6.349999999999999645 ) ) ;
#136 = COORDINATED_UNIVERSAL_TIME_OFFSET ( 8, 0, .AHEAD. ) ;
#137 = LINE ( 'NONE', #195, #37 ) ;
#138 = PERSON_AND_ORGANIZATION ( #197, #257 ) ;
#139 = DIRECTION ( 'NONE',  ( -2.220446049250312588E-16, 1.000000000000000000, 0.000000000000000000 ) ) ;
#140 = DIRECTION ( 'NONE',  ( 0.7071067811865475727, 0.7071067811865475727, 0.000000000000000000 ) ) ;
#141 = ORIENTED_EDGE ( 'NONE', *, *, #44, .F. ) ;
#142 = APPROVAL ( #134, 'UNSPECIFIED' ) ;
#143 = DIRECTION ( 'NONE',  ( 1.000000000000000000, 0.000000000000000000, 0.000000000000000000 ) ) ;
#144 = MECHANICAL_CONTEXT ( 'NONE', #51, 'mechanical' ) ;
#145 = ORIENTED_EDGE ( 'NONE', *, *, #94, .T. ) ;
#146 = LINE ( 'NONE', #245, #308 ) ;
#147 = DIRECTION ( 'NONE',  ( 0.000000000000000000, 0.000000000000000000, -1.000000000000000000 ) ) ;
#148 = PLANE ( 'NONE',  #237 ) ;
#149 = APPROVAL_PERSON_ORGANIZATION ( #244, #142, #34 ) ;
#150 = CARTESIAN_POINT ( 'NONE',  ( 0.000000000000000000, 0.000000000000000000, 6.349999999999999645 ) ) ;
#151 = VECTOR ( 'NONE', #152, 1000.000000000000114 ) ;
#152 = DIRECTION ( 'NONE',  ( -0.7071067811865474617, -0.7071067811865474617, 0.000000000000000000 ) ) ;
#153 = DATE_AND_TIME ( #281, #126 ) ;
#154 = MANIFOLD_SOLID_BREP ( '¾µÏ', #130 ) ;
#155 = LINE ( 'NONE', #161, #166 ) ;
#156 = COORDINATED_UNIVERSAL_TIME_OFFSET ( 8, 0, .AHEAD. ) ;
#157 = PLANE ( 'NONE',  #180 ) ;
#158 = CC_DESIGN_PERSON_AND_ORGANIZATION_ASSIGNMENT ( #223, #230, ( #186 ) ) ;
#159 = DIRECTION ( 'NONE',  ( 0.000000000000000000, 0.000000000000000000, 1.000000000000000000 ) ) ;
#160 = ORIENTED_EDGE ( 'NONE', *, *, #227, .T. ) ;
#161 = CARTESIAN_POINT ( 'NONE',  ( -6.349999999999998757, -6.349999999999997868, -6.349999999999999645 ) ) ;
#162 = EDGE_LOOP ( 'NONE', ( #45, #316, #236 ) ) ;
#163 = EDGE_CURVE ( 'NONE', #213, #311, #82, .T. ) ;
#164 = CARTESIAN_POINT ( 'NONE',  ( 0.000000000000000000, 0.000000000000000000, -6.349999999999999645 ) ) ;
#165 = ORIENTED_EDGE ( 'NONE', *, *, #288, .F. ) ;
#166 = VECTOR ( 'NONE', #305, 1000.000000000000000 ) ;
#167 =( NAMED_UNIT ( * ) PLANE_ANGLE_UNIT ( ) SI_UNIT ( $, .RADIAN. ) );
#168 = VERTEX_POINT ( 'NONE', #54 ) ;
#169 = CC_DESIGN_APPROVAL ( #142, ( #301 ) ) ;
#170 = CARTESIAN_POINT ( 'NONE',  ( 0.000000000000000000, 0.000000000000000000, 0.000000000000000000 ) ) ;
#171 = PERSON_AND_ORGANIZATION_ROLE ( 'creator' ) ;
#172 = DIRECTION ( 'NONE',  ( 0.000000000000000000, 0.000000000000000000, -1.000000000000000000 ) ) ;
#173 = EDGE_CURVE ( 'NONE', #193, #311, #252, .T. ) ;
#174 = APPLICATION_PROTOCOL_DEFINITION ( 'international standard', 'config_control_design', 1994, #259 ) ;
#175 = PLANE ( 'NONE',  #121 ) ;
#176 = APPROVAL_ROLE ( '' ) ;
#177 = DIRECTION ( 'NONE',  ( 0.7071067811865474617, 0.7071067811865474617, 0.000000000000000000 ) ) ;
#178 = DIRECTION ( 'NONE',  ( 0.000000000000000000, -0.000000000000000000, 1.000000000000000000 ) ) ;
#179 = DIRECTION ( 'NONE',  ( -0.7071067811865475727, -0.7071067811865475727, 0.000000000000000000 ) ) ;
#180 = AXIS2_PLACEMENT_3D ( 'NONE', #255, #35, #159 ) ;
#181 = AXIS2_PLACEMENT_3D ( 'NONE', #170, #129, #192 ) ;
#182 = SECURITY_CLASSIFICATION_LEVEL ( 'unclassified' ) ;
#183 = DIRECTION ( 'NONE',  ( -6.829619984160658046E-17, 1.000000000000000000, -0.000000000000000000 ) ) ;
#184 = DIRECTION ( 'NONE',  ( -2.220446049250312588E-16, 1.000000000000000000, 0.000000000000000000 ) ) ;
#185 = EDGE_CURVE ( 'NONE', #62, #314, #214, .T. ) ;
#186 = SECURITY_CLASSIFICATION ( '', '', #182 ) ;
#187 = EDGE_CURVE ( 'NONE', #77, #213, #256, .T. ) ;
#188 = CARTESIAN_POINT ( 'NONE',  ( 6.349999999999996980, 6.349999999999996980, 6.349999999999999645 ) ) ;
#189 = PLANE ( 'NONE',  #112 ) ;
#190 = ORIENTED_EDGE ( 'NONE', *, *, #307, .T. ) ;
#191 = DIRECTION ( 'NONE',  ( 0.000000000000000000, 0.000000000000000000, 1.000000000000000000 ) ) ;
#192 = DIRECTION ( 'NONE',  ( 1.000000000000000000, 0.000000000000000000, 0.000000000000000000 ) ) ;
#193 = VERTEX_POINT ( 'NONE', #41 ) ;
#194 = ORIENTED_EDGE ( 'NONE', *, *, #8, .F. ) ;
#195 = CARTESIAN_POINT ( 'NONE',  ( -6.349999999999998757, -6.349999999999997868, 6.349999999999999645 ) ) ;
#196 = CARTESIAN_POINT ( 'NONE',  ( -6.349999999999998757, -6.349999999999997868, 6.349999999999999645 ) ) ;
#197 = PERSON ( 'UNSPECIFIED', 'UNSPECIFIED', 'UNSPECIFIED', ('UNSPECIFIED'), ('UNSPECIFIED'), ('UNSPECIFIED') ) ;
#198 = DIRECTION ( 'NONE',  ( -6.829619984160658046E-17, 1.000000000000000000, -0.000000000000000000 ) ) ;
#199 = CC_DESIGN_PERSON_AND_ORGANIZATION_ASSIGNMENT ( #72, #171, ( #103 ) ) ;
#200 = LINE ( 'NONE', #280, #18 ) ;
#201 = CARTESIAN_POINT ( 'NONE',  ( -6.349999999999999645, -6.350000000000000533, -6.349999999999999645 ) ) ;
#202 = DIRECTION ( 'NONE',  ( -2.220446049250312588E-16, 1.000000000000000000, 0.000000000000000000 ) ) ;
#203 = APPROVAL ( #76, 'UNSPECIFIED' ) ;
#204 = DIRECTION ( 'NONE',  ( -0.000000000000000000, 0.000000000000000000, 1.000000000000000000 ) ) ;
#205 = EDGE_CURVE ( 'NONE', #239, #64, #155, .T. ) ;
#206 = CLOSED_SHELL ( 'NONE', ( #89, #124, #276, #212, #273 ) ) ;
#207 = ORIENTED_EDGE ( 'NONE', *, *, #307, .F. ) ;
#208 = PRODUCT ( 'N-SF1-BPBSC-12.7-1200-1600', 'N-SF1-BPBSC-12.7-1200-1600', '', ( #144 ) ) ;
#209 = DIRECTION ( 'NONE',  ( -0.000000000000000000, -0.000000000000000000, -1.000000000000000000 ) ) ;
#210 = PRODUCT_DEFINITION_SHAPE ( 'NONE', 'NONE',  #103 ) ;
#211 = LINE ( 'NONE', #135, #73 ) ;
#212 = ADVANCED_FACE ( 'NONE', ( #4 ), #111, .T. ) ;
#213 = VERTEX_POINT ( 'NONE', #109 ) ;
#214 = LINE ( 'NONE', #36, #231 ) ;
#215 = EDGE_LOOP ( 'NONE', ( #19, #120, #118, #70 ) ) ;
#216 = APPROVAL_ROLE ( '' ) ;
#217 = ORIENTED_EDGE ( 'NONE', *, *, #22, .F. ) ;
#218 = LINE ( 'NONE', #319, #21 ) ;
#219 = CARTESIAN_POINT ( 'NONE',  ( -6.350000000000002309, 6.350000000000001421, -6.349999999999999645 ) ) ;
#220 = LINE ( 'NONE', #84, #258 ) ;
#221 = DIRECTION ( 'NONE',  ( 1.000000000000000000, -2.903408047666378392E-16, 0.000000000000000000 ) ) ;
#222 = VERTEX_POINT ( 'NONE', #95 ) ;
#223 = PERSON_AND_ORGANIZATION ( #197, #257 ) ;
#224 = DIRECTION ( 'NONE',  ( -0.7071067811865475727, -0.7071067811865475727, 0.000000000000000000 ) ) ;
#225 = ADVANCED_FACE ( 'NONE', ( #262 ), #39, .F. ) ;
#226 = DIRECTION ( 'NONE',  ( 1.000000000000000000, -2.903408047666378392E-16, 0.000000000000000000 ) ) ;
#227 = EDGE_CURVE ( 'NONE', #222, #77, #211, .T. ) ;
#228 = CALENDAR_DATE ( 2021, 5, 1 ) ;
#229 = FACE_OUTER_BOUND ( 'NONE', #10, .T. ) ;
#230 = PERSON_AND_ORGANIZATION_ROLE ( 'classification_officer' ) ;
#231 = VECTOR ( 'NONE', #139, 1000.000000000000000 ) ;
#232 = AXIS2_PLACEMENT_3D ( 'NONE', #164, #191, #184 ) ;
#233 = DIRECTION ( 'NONE',  ( -0.7071067811865475727, 0.7071067811865475727, 0.000000000000000000 ) ) ;
#234 = CC_DESIGN_DATE_AND_TIME_ASSIGNMENT ( #46, #270, ( #103 ) ) ;
#235 = DIRECTION ( 'NONE',  ( -0.7071067811865474617, -0.7071067811865474617, 0.000000000000000000 ) ) ;
#236 = ORIENTED_EDGE ( 'NONE', *, *, #97, .F. ) ;
#237 = AXIS2_PLACEMENT_3D ( 'NONE', #150, #279, #202 ) ;
#238 = CARTESIAN_POINT ( 'NONE',  ( 6.349999999999996980, 6.349999999999996980, 6.349999999999999645 ) ) ;
#239 = VERTEX_POINT ( 'NONE', #11 ) ;
#240 = APPROVAL_PERSON_ORGANIZATION ( #3, #71, #176 ) ;
#241 = CC_DESIGN_PERSON_AND_ORGANIZATION_ASSIGNMENT ( #81, #304, ( #301 ) ) ;
#242 = ORIENTED_EDGE ( 'NONE', *, *, #173, .F. ) ;
#243 = VECTOR ( 'NONE', #224, 999.9999999999998863 ) ;
#244 = PERSON_AND_ORGANIZATION ( #197, #257 ) ;
#245 = CARTESIAN_POINT ( 'NONE',  ( 6.349999999999996980, 6.349999999999996980, 6.349999999999999645 ) ) ;
#246 = CC_DESIGN_APPROVAL ( #71, ( #186 ) ) ;
#247 = DIRECTION ( 'NONE',  ( -1.000000000000000000, 2.903408047666378392E-16, 0.000000000000000000 ) ) ;
#248 = FACE_OUTER_BOUND ( 'NONE', #215, .T. ) ;
#249 = DESIGN_CONTEXT ( 'detailed design', #259, 'design' ) ;
#250 = ORIENTED_EDGE ( 'NONE', *, *, #8, .T. ) ;
#251 = VECTOR ( 'NONE', #235, 1000.000000000000114 ) ;
#252 = LINE ( 'NONE', #306, #7 ) ;
#253 = APPROVAL_DATE_TIME ( #153, #142 ) ;
#254 = COORDINATED_UNIVERSAL_TIME_OFFSET ( 8, 0, .AHEAD. ) ;
#255 = CARTESIAN_POINT ( 'NONE',  ( -6.349999999999998757, -6.349999999999997868, 6.349999999999999645 ) ) ;
#256 = LINE ( 'NONE', #114, #99 ) ;
#257 = ORGANIZATION ( 'UNSPECIFIED', 'UNSPECIFIED', '' ) ;
#258 = VECTOR ( 'NONE', #179, 999.9999999999998863 ) ;
#259 = APPLICATION_CONTEXT ( 'configuration controlled 3d designs of mechanical parts and assemblies' ) ;
#260 = CC_DESIGN_PERSON_AND_ORGANIZATION_ASSIGNMENT ( #138, #55, ( #301 ) ) ;
#261 = LOCAL_TIME ( 10, 14, 23.00000000000000000, #156 ) ;
#262 = FACE_OUTER_BOUND ( 'NONE', #96, .T. ) ;
#263 = ORIENTED_EDGE ( 'NONE', *, *, #163, .T. ) ;
#264 = LINE ( 'NONE', #238, #317 ) ;
#265 = ORIENTED_EDGE ( 'NONE', *, *, #22, .T. ) ;
#266 = EDGE_CURVE ( 'NONE', #93, #193, #282, .T. ) ;
#267 = ORIENTED_EDGE ( 'NONE', *, *, #291, .T. ) ;
#268 = COORDINATED_UNIVERSAL_TIME_OFFSET ( 8, 0, .AHEAD. ) ;
#269 = ORIENTED_EDGE ( 'NONE', *, *, #80, .T. ) ;
#270 = DATE_TIME_ROLE ( 'creation_date' ) ;
#271 = ADVANCED_BREP_SHAPE_REPRESENTATION ( 'N-SF1-BPBSC-12.7-1200-1600', ( #49, #154, #181 ), #63 ) ;
#272 = CARTESIAN_POINT ( 'NONE',  ( 6.349999999999998757, 6.349999999999998757, 6.349999999999999645 ) ) ;
#273 = ADVANCED_FACE ( 'NONE', ( #290 ), #313, .F. ) ;
#274 = CALENDAR_DATE ( 2021, 5, 1 ) ;
#275 = LINE ( 'NONE', #302, #69 ) ;
#276 = ADVANCED_FACE ( 'NONE', ( #229 ), #189, .F. ) ;
#277 = DIRECTION ( 'NONE',  ( 1.000000000000000000, 0.000000000000000000, 0.000000000000000000 ) ) ;
#278 = APPROVAL_DATE_TIME ( #28, #71 ) ;
#279 = DIRECTION ( 'NONE',  ( 0.000000000000000000, 0.000000000000000000, 1.000000000000000000 ) ) ;
#280 = CARTESIAN_POINT ( 'NONE',  ( 6.349999999999998757, 6.349999999999998757, 6.349999999999999645 ) ) ;
#281 = CALENDAR_DATE ( 2021, 5, 1 ) ;
#282 = LINE ( 'NONE', #59, #251 ) ;
#283 = SHAPE_DEFINITION_REPRESENTATION ( #210, #271 ) ;
#284 = VECTOR ( 'NONE', #277, 1000.000000000000000 ) ;
#285 = ADVANCED_FACE ( 'NONE', ( #86 ), #65, .F. ) ;
#286 = LOCAL_TIME ( 10, 14, 23.00000000000000000, #136 ) ;
#287 = ORIENTED_EDGE ( 'NONE', *, *, #205, .T. ) ;
#288 = EDGE_CURVE ( 'NONE', #13, #168, #264, .T. ) ;
#289 = ADVANCED_FACE ( 'NONE', ( #57 ), #157, .F. ) ;
#290 = FACE_OUTER_BOUND ( 'NONE', #162, .T. ) ;
#291 = EDGE_CURVE ( 'NONE', #62, #239, #137, .T. ) ;
#292 = LOCAL_TIME ( 10, 14, 23.00000000000000000, #78 ) ;
#293 = CARTESIAN_POINT ( 'NONE',  ( 6.349999999999998757, 6.349999999999998757, 6.349999999999999645 ) ) ;
#294 = ORIENTED_EDGE ( 'NONE', *, *, #185, .T. ) ;
#295 = EDGE_LOOP ( 'NONE', ( #263, #242, #309, #1 ) ) ;
#296 = AXIS2_PLACEMENT_3D ( 'NONE', #128, #303, #177 ) ;
#297 = ORIENTED_EDGE ( 'NONE', *, *, #205, .F. ) ;
#298 = PERSON_AND_ORGANIZATION ( #197, #257 ) ;
#299 = ORIENTED_EDGE ( 'NONE', *, *, #185, .F. ) ;
#300 =( NAMED_UNIT ( * ) SI_UNIT ( $, .STERADIAN. ) SOLID_ANGLE_UNIT ( ) );
#301 = PRODUCT_DEFINITION_FORMATION_WITH_SPECIFIED_SOURCE ( 'ANY', '', #208, .NOT_KNOWN. ) ;
#302 = CARTESIAN_POINT ( 'NONE',  ( -6.350000000000002309, 6.350000000000001421, 6.349999999999999645 ) ) ;
#303 = DIRECTION ( 'NONE',  ( 0.7071067811865475727, -0.7071067811865475727, 0.000000000000000000 ) ) ;
#304 = PERSON_AND_ORGANIZATION_ROLE ( 'creator' ) ;
#305 = DIRECTION ( 'NONE',  ( -2.220446049250312588E-16, 1.000000000000000000, 0.000000000000000000 ) ) ;
#306 = CARTESIAN_POINT ( 'NONE',  ( -6.349999999999999645, -6.350000000000000533, 6.349999999999999645 ) ) ;
#307 = EDGE_CURVE ( 'NONE', #64, #168, #218, .T. ) ;
#308 = VECTOR ( 'NONE', #226, 1000.000000000000000 ) ;
#309 = ORIENTED_EDGE ( 'NONE', *, *, #266, .F. ) ;
#310 = DIRECTION ( 'NONE',  ( -0.000000000000000000, -0.000000000000000000, -1.000000000000000000 ) ) ;
#311 = VERTEX_POINT ( 'NONE', #68 ) ;
#312 = AXIS2_PLACEMENT_3D ( 'NONE', #92, #204, #143 ) ;
#313 = PLANE ( 'NONE',  #312 ) ;
#314 = VERTEX_POINT ( 'NONE', #15 ) ;
#315 = LINE ( 'NONE', #320, #38 ) ;
#316 = ORIENTED_EDGE ( 'NONE', *, *, #187, .F. ) ;
#317 = VECTOR ( 'NONE', #116, 1000.000000000000000 ) ;
#318 = EDGE_CURVE ( 'NONE', #93, #213, #315, .T. ) ;
#319 = CARTESIAN_POINT ( 'NONE',  ( 6.349999999999996980, 6.349999999999996980, -6.349999999999999645 ) ) ;
#320 = CARTESIAN_POINT ( 'NONE',  ( 6.349999999999998757, 6.349999999999998757, 6.349999999999999645 ) ) ;
#321 = PLANE ( 'NONE',  #296 ) ;
ENDSEC;
END-ISO-10303-21;
